Musica do --> Pedro Alertse Kimoy

Ver o tópico anterior Ver o tópico seguinte Ir em baixo

Musica do --> Pedro Alertse Kimoy

Mensagem por Pedro Alertse W. Kimoy em Qui 02 Dez 2010, 20:18

Tablatura qe eu fiz /o/

------------------------------------------------------1---0-----------------
-------3---1--------------0-----------0---------------------------0------1
----0-----------------------------2---------2---------------------0--------
---------------3------------------------------------------------------------
----------------------------------------------------------3-----------------
-----------------------------------------------------------------------------

Dm|Espere 1 segundo para efetuar a nota da Tab. abaixo

-3---------------------------------------------------------------------------
-3---------------------------------------------------------------------------
-----------------------------------------------------------------------------
-----------------------------------------------------------------------------
-----------------------------------------------------------------------------
-----------------------------------------------------------------------------
C7|C|Dm|Espere 5 segundos|

--1-----0--------------------|-------------0-----------------------------------
--3-----1--------------------|----0-------3----------0------------------------
------------------------------|----0-------------------------------------------
------------------------------|------------------------2-----------------------
------------------------------|------------------------------------------------
------------------------------|------------------------------------------------

Dm
--------0---------------------------------------------------------------------
-0-----3-------0-------1--------------1-------------------------------------
------------------------------------------------------------------------------
----------------2------------------------------------------------------------
-----------------------------------------------------------------------------
-----------------------------------------------------------------------------

Tentem tocar no violão ^^,e postem please...
[Novidades será atualizado,ou não]
Pedro Alertse W. Kimoy
Pedro Alertse W. Kimoy
IndefinidosPercy Jackson RPG BR

Mensagens :
639

Localização :
Wooow

Voltar ao Topo Ir em baixo

Re: Musica do --> Pedro Alertse Kimoy

Mensagem por Wortiago em Qui 02 Dez 2010, 21:44

A cadência ficou legal, mas acho que precisa melhorar na primeira parte.

Mais especificamente este trecho:
------------------------------------------------------1---0-----------------
-------3---1--------------0-----------0---------------------------0------1
----0-----------------------------2---------2---------------------0---------
---------------3------------------------------------------------------------
----------------------------------------------------------3-----------------
-----------------------------------------------------------------------------

Mas ficou muito legal.
Wortiago
Wortiago
IndefinidosPercy Jackson RPG BR

Mensagens :
37

Localização :
Chalé nº5 (Ares)

Voltar ao Topo Ir em baixo

Re: Musica do --> Pedro Alertse Kimoy

Mensagem por Afonzo Alighieri em Sex 03 Dez 2010, 10:07

Pedro, ficou legal, mas concordo com o Wortiago, nessa parte vc precisa melhorar.A cadencia eu não conseguiria fazer melhor.







Afonzo Alighieri
Afonzo Alighieri
IndefinidosPercy Jackson RPG BR

Mensagens :
193

Localização :
ny

Voltar ao Topo Ir em baixo

Re: Musica do --> Pedro Alertse Kimoy

Mensagem por Pedro Alertse W. Kimoy em Sex 03 Dez 2010, 10:24

BOm,gente me ajudem a arrumar essa parte
Pedro Alertse W. Kimoy
Pedro Alertse W. Kimoy
IndefinidosPercy Jackson RPG BR

Mensagens :
639

Localização :
Wooow

Voltar ao Topo Ir em baixo

Re: Musica do --> Pedro Alertse Kimoy

Mensagem por Wortiago em Sex 03 Dez 2010, 11:08

Que tal você colocar assim?:

------------------3-----------3-----------2------------1---0-----------------
-------3---1-----3-----------0-----------0------------------------0------1
----0---------------------------------------------------------------0--------
----------------------------------------------------------------------------
-------------------------------------------------------------3-----------------
-----------------------------------------------------------------------------
Wortiago
Wortiago
IndefinidosPercy Jackson RPG BR

Mensagens :
37

Localização :
Chalé nº5 (Ares)

Voltar ao Topo Ir em baixo

Re: Musica do --> Pedro Alertse Kimoy

Mensagem por Kayo Hellarck Wiehrgraf em Dom 10 Abr 2011, 11:47

------------------3-----------3-----------2------------1---0-----------------
-------3---1-----3-----------2-----------1------------------------0------1
----0---------------------------------------------------------------0--------
----------------------------------------------------------------------------
-------------------------------------------------------------3-----------------
-----------------------------------------------------------------------------
Essa é a minha sugestão...espero que goste e Pedro...se vc colocar uma letra boa, dá sucesso ein...
Kayo Hellarck Wiehrgraf
Kayo Hellarck Wiehrgraf
IndefinidosPercy Jackson RPG BR

Mensagens :
820

Localização :
Junto de meu mestre, Orfeu.

Voltar ao Topo Ir em baixo

Re: Musica do --> Pedro Alertse Kimoy

Mensagem por Conteúdo patrocinado

Conteúdo patrocinado

Voltar ao Topo Ir em baixo

Ver o tópico anterior Ver o tópico seguinte Voltar ao Topo

- Tópicos similares

Permissão deste fórum:
Você não pode responder aos tópicos neste fórum
:: Topsites Zonkos - [Zks] ::