luke freheley's songs

Ver o tópico anterior Ver o tópico seguinte Ir em baixo

luke freheley's songs

Mensagem por Luke Freheley em Qui 16 Dez 2010, 19:48

|-----------------------------------------------------------------------------|
|-----------------------------------------------------------------------------|
|-9~~~~~~~~~~~--7~~~~~~~~(7)~~~~-6-----7-------(7)~~~~~-6-7----|
|-----------------------------------------------------------------------------|
|-----------------------------------------------------------------------------|
|--------------------------------------------------------------------------7\-|

|------------------------------------------------------------------------7h8p7\5-|
|-----------------------------------------------------------------------8----------|
|-------5---(5)----7h8p7p5-8-7-(7)-5-7-7-5------------------5-7/9-----------|
|-7-------------------------------------------7-7~~~~~~--7----------------------|
|----------------------------------------------------------------------------------|
|----------------------------------------------------------------------------------|

afinaçao meio tom abaixo


ps:.eu sei ta muito ruim
Luke Freheley
Luke Freheley
IndefinidosPercy Jackson RPG BR

Mensagens :
94

Localização :
chalé 11 - Hermes

Voltar ao Topo Ir em baixo

Re: luke freheley's songs

Mensagem por 013-ExStaff em Qui 16 Dez 2010, 19:55

Não está tão ruim,arranje uma letra legal e terá uma boa musica /o
013-ExStaff
013-ExStaff
IndefinidosPercy Jackson RPG BR

Mensagens :
162

Voltar ao Topo Ir em baixo

Re: luke freheley's songs

Mensagem por Aled Lynch em Ter 04 Jan 2011, 11:10

Isso mesmo...
Aled Lynch
Aled Lynch
Filhos de HipnosAcampamento Meio-Sangue

Mensagens :
422

Localização :
CHB

Voltar ao Topo Ir em baixo

Re: luke freheley's songs

Mensagem por Ninha Fabbris em Sex 04 Nov 2011, 16:34

aew õ/ eu sei cantar -Q
Ninha Fabbris
Ninha Fabbris
IndefinidosPercy Jackson RPG BR

Mensagens :
645

Localização :
Por aí no acampamento (:

Voltar ao Topo Ir em baixo

Re: luke freheley's songs

Mensagem por Conteúdo patrocinado

Conteúdo patrocinado

Voltar ao Topo Ir em baixo

Ver o tópico anterior Ver o tópico seguinte Voltar ao Topo


Permissão deste fórum:
Você não pode responder aos tópicos neste fórum
:: Topsites Zonkos - [Zks] ::